Minor Pentatonics

The Five Positions

 

 

Position 1

________________

| | | | | |

X X X X X X

|__|__|__|__|__|

| | | | | |

| | | | | |

|__|__|__|__|__|

| | | | | |

| X X X | |

|__|__|__|__|__|

| | | | | |

X | | | X X

|__|__|__|__|__|

 

 

1st Position (Root Position) Examples

 

G minor pentatonic

|-------------|-------------|-------3--6--|

|-------------|-------------|-3--6--------|

|-------------|-------3--5--|-------------|

|-------------|-3--5--------|-------------|

|-------3--5--|-------------|-------------|

|-3--6--------|-------------|-------------|

 

 

A minor pentatonic

|-------------|-------------|-------5--8--|

|-------------|-------------|-5--8--------|

|-------------|-------5--7--|-------------|

|-------------|-5--7--------|-------------|

|-------5--7--|-------------|-------------|

|-5--8--------|-------------|-------------|

 

 

E minor pentatonic (open postion)

|-------------|-------------|-------0--3--|

|-------------|-------------|-0--3--------|

|-------------|-------0--2--|-------------|

|-------------|-0--2--------|-------------|

|-------0--2--|-------------|-------------|

|-0--3--------|-------------|-------------|

 


 

Position 2

 

________________

| | | | | |

| X X X | |

|__|__|__|__|__|

| | | | | |

X | | | X X

|__|__|__|__|__|

| | | | | |

| | | X | |

|__|__|__|__|__|

| | | | | |

X X X | X X

|__|__|__|__|__|

 

 

2nd Position Examples

 

G minor pentatonic

|-------------|-------------|-------6--8--|

|-------------|-------------|-6--8--------|

|-------------|-------5--7--|-------------|

|-------------|-5--8--------|-------------|

|-------5--8--|-------------|-------------|

|-6--8--------|-------------|-------------|

 

 

A minor pentatonic

|-------------|-------------|-------8--10-|

|-------------|-------------|-8--10-------|

|-------------|-------7--9--|-------------|

|-------------|-7--10-------|-------------|

|-------7--10-|-------------|-------------|

|-8--10-------|-------------|-------------|

 

E minor pentatonic

|-------------|-------------|-------3--5--|

|-------------|-------------|-3--5--------|

|-------------|-------2--4--|-------------|

|-------------|-2--5--------|-------------|

|-------2--5--|-------------|-------------|

|-3--5--------|-------------|-------------|

 

 

 

 


Position 3

________________

| | | | | |

| | | X | |

|__|__|__|__|__|

| | | | | |

X X X | X X

|__|__|__|__|__|

| | | | | |

| | | | | |

|__|__|__|__|__|

| | | | | |

X X X X | X

|__|__|__|__|__|

| | | | | |

| | | | X |

|__|__|__|__|__|

 

 

3rd Position Examples

 

G minor pentatonic

|---------------|---------------|--------8--10--|

|---------------|---------------|-8--11---------|

|---------------|--------7--10--|---------------|

|---------------|-8--10---------|---------------|

|--------8--10--|---------------|---------------|

|-8--10---------|---------------|---------------|

 

 

A minor pentatonic

|---------------|---------------|--------10--12-|

|---------------|---------------|-10--13--------|

|---------------|--------9--12--|---------------|

|---------------|-10--12--------|---------------|

|--------10--12-|---------------|---------------|

|-10--12--------|---------------|---------------|

 

 

E minor pentatonic

|---------------|---------------|--------57----|

|---------------|---------------|-5--8----------|

|---------------|--------4--7---|---------------|

|---------------|-5--7----------|---------------|

|--------5-7---|---------------|---------------|

|-5--7----------|---------------|---------------|

 

 


Position 4

________________

| | | | | |

X X X X | X

|__|__|__|__|__|

| | | | | |

| | | | X |

|__|__|__|__|__|

| | | | | |

| | X X | |

|__|__|__|__|__|

| | | | | |

X X | | X X

|__|__|__|__|__|

 

 

4th Position Examples

 

G minor pentatonic

|-----------------|-----------------|---------10--13--|

|-----------------|-----------------|-11--13----------|

|-----------------|---------10--12--|-----------------|

|-----------------|-10--12----------|-----------------|

|---------10--13--|-----------------|-----------------|

|-10--13----------|-----------------|-----------------|

 

 

A minor pentatonic

|-----------------|-----------------|---------12--15--|

|-----------------|-----------------|-13--15----------|

|-----------------|---------12--14--|-----------------|

|-----------------|-12--14----------|-----------------|

|---------12--15--|-----------------|-----------------|

|-12--15----------|-----------------|-----------------|

 

 

E minor pentatonic

|-----------------|-----------------|---------7--10---|

|-----------------|-----------------|-8--10-----------|

|-----------------|---------7--9----|-----------------|

|-----------------|-7--9------------|-----------------|

|---------7--10---|-----------------|-----------------|

|-7--10-----------|-----------------|-----------------|

 

 

 


Position 5

________________

| | | | | |

| | X X | |

|__|__|__|__|__|

| | | | | |

X X | | X X

|__|__|__|__|__|

| | | | | |

| | | | | |

|__|__|__|__|__|

| | | | | |

X X X X X X

|__|__|__|__|__|

 

 

 

5th Position Examples

 

G minor pentatonic

|-----------------|-----------------|---------13--15--|

|-----------------|-----------------|-13--15----------|

|-----------------|---------12--15--|-----------------|

|-----------------|-12--15----------|-----------------|

|---------13--15--|-----------------|-----------------|

|-13--15----------|-----------------|-----------------|

 

 

A minor pentatonic

|-----------------|-----------------|---------15--17--|

|-----------------|-----------------|-15--17----------|

|-----------------|---------14--17--|-----------------|

|-----------------|-14--17----------|-----------------|

|---------15--17--|-----------------|-----------------|

|-15--17----------|-----------------|-----------------|

 

 

E minor pentatonic

|-----------------|-----------------|---------10--12--|

|-----------------|-----------------|-10--12----------|

|-----------------|---------9--12---|-----------------|

|-----------------|-9--12-----------|-----------------|

|---------10--12--|-----------------|-----------------|

|-10--12----------|-----------------|-----------------|

 

 

 


Position 1 -An Octave Higher

________________

| | | | | |

X X X X X X

|__|__|__|__|__|

| | | | | |

| | | | | |

|__|__|__|__|__|

| | | | | |

| X X X | |

|__|__|__|__|__|

| | | | | |

X | | | X X

|__|__|__|__|__|

 

 

Back to Root(1st Position) but an octave higher

 

G minor pentatonic

|-----------------|-----------------|---------15--18--|

|-----------------|-----------------|-15--18----------|

|-----------------|---------15--17--|-----------------|

|-----------------|-15--17----------|-----------------|

|---------15--17--|-----------------|-----------------|

|-15--18----------|-----------------|-----------------|

 

 

A minor pentatonic

|-----------------|-----------------|---------17--20--|

|-----------------|-----------------|-17--20----------|

|-----------------|---------17--19--|-----------------|

|-----------------|-17--19----------|-----------------|

|---------17--19--|-----------------|-----------------|

|-17--20----------|-----------------|-----------------|

 

 

E minor pentatonic

|-----------------|-----------------|---------12--15--|

|-----------------|-----------------|-12--15----------|

|-----------------|---------12--14--|-----------------|

|-----------------|-12--14----------|-----------------|

|---------12--14--|-----------------|-----------------|

|-12--15----------|-----------------|-----------------|

 

 

 

Copyright 2001 B.L. Guitar Instruction www.blguitar.com

www.BLGuitar.com