Guitar Tab

Day Tripper

By The Beatles

                      
Day Tripper  The Beatles - Guitar Tab
=========================================================================

#----------------------------------PLEASE NOTE---------------------------------#
#This file is the author's own work and represents their interpretation of the #
#song. You may only use this file for private study, scholarship, or research. #
#------------------------------------------------------------------------------#
#

TAB: Day Tripper
MUSIC BY: The Beatles 



Riff 1 (Verse)
E--------------------------------------------
B--------------------------------------------
G--------------------------------------------
D-----------2--0-----4----0-2----------------
A---------2-------2-----2--------------------
E--0--3-4------------------------------------


Riff 2 (Verse)
E--------------------------------------------
B--------------------------------------------
G-----------2--0-----4----0-2----------------
D---------2-------2-----2--------------------
A--0--3-4------------------------------------
E--------------------------------------------


Riff 3 (Chorus)
   F#        A         G#       C#                 B
E----------------------------------9--9-----9--------7-7---7-------------
A---x8-------x2--------x2----------9--9--9--9--9-----7-7-7-7-7-----------
D-------------------------------10-10-10-10-10-10--8-8-8-8-8-8-----------
G--4---------7---------6--------11-11-11-11-11-11--9-9-9-9-9-9-----------
B--4-4-4-4-/-7-7-7-7-/-6-6-6-6--11-11-11-11-11-11--9-9-9-9-9-9-----------
E--2-2-2-2-/-5-5-5-5-/-4-4-4-4--9--------9-----9---7-----7---7-----------
  p.m.


Riff 4 (Bridge)
E--------------------------------------------
A--------------------------------------------
D-----------5--------6------5----------------
G---------5----7--5-----5-7------------------
B--2---5-6-----------------------------------
E--------------------------------------------



Riff 5 (Solo)                                   BU    BD
E------------------------------------------12-14(15)(15)14-12------------
A---PB-------BU---10--BD----13-13-15-13-15--------------------13---------
D--(8)7---7-9(11)----(11)9---------------------------------------9-9-9-9-
G-------9--------------------------------------------------------9-9-9-9-
A------------------------------------------------------------------------
E------------------------------------------------------------------------



Lead Guitar:

Intro  :  Riff 1 (x3)
Verse1 :  Riff 1 (X4), Riff 2, Riff 1
Chorus :  Riff 3
Verse2 :  Riff 1 (X4), Riff 2, Riff 1
Chorus :  Riff 3
Bridge :  Riff 4 (x3), Riff 5  (Solo)
Verse3 :  Riff 1 (X4), Riff 2, Riff 1
Chorus :  Riff 3
Outro  :  Riff 1 (x9 Fade out)




Lyrics \ Rhythm Guitar:


 Verse 1:
E7
Got a good reason

For taking the easy way out
A7
Got a good reason
E7
For taking the easy way out now


 Chorus:
                  F#
She was a day tripper

One way ticket yeah
           A7 G#7
It took me so long
        C#               B
To find out, and I found out


 Verse2:
E7
She's a big teaser

She took me half the way there
A7
She's a big teaser
E7
She took me half the way there now


 Chorus:
                  F#
She was a day tripper

One way ticket yeah
              A7
It took me so long
   G#7          C#
To find out, and I found out


 Bridge:
B
Ahh ahh ahh, ahh ahh, ahh


 Verse3:
E7
Tried to please her

She only played one night stands
A7  
Tried to please her
E7
She only played one night stands now


 Chorus:
F#
She was a day tripper

Sunday driver yeah
        A7
It took me so long
           G#7              C#
To find out, and I found out

 Outro:
E7
Day tripper
Day tripper yeah
Day tripper
Day tripper yeah
Day tripper

-------------------------------------------------------------------

 

Guitar Ads